ISO-10303-21;
HEADER;
/* Generated by software containing ST-Developer
 * from STEP Tools, Inc. (www.steptools.com) 
 */

FILE_DESCRIPTION(
/* description */ (''),
/* implementation_level */ '2;1');

FILE_NAME(
/* name */ 
'T:\\SB PRODUKSJON AS\\3 PRODUKTER\\9 PRODUKUTVIKLING\\BSF 1100\\8 Teg
ninger\\BSF 1100\\STEP\\S 1100.stp',
/* time_stamp */ '2018-11-13T11:40:07+01:00',
/* author */ ('sbter'),
/* organization */ (''),
/* preprocessor_version */ 'ST-DEVELOPER v17',
/* originating_system */ 'Autodesk Inventor 2018',
/* authorisation */ '');

FILE_SCHEMA (('AUTOMOTIVE_DESIGN { 1 0 10303 214 3 1 1 }'));
ENDSEC;

DATA;
#10=MECHANICAL_DESIGN_GEOMETRIC_PRESENTATION_REPRESENTATION('',(#13),#552);
#11=SHAPE_REPRESENTATION_RELATIONSHIP('SRR','None',#559,#12);
#12=ADVANCED_BREP_SHAPE_REPRESENTATION('',(#14),#551);
#13=STYLED_ITEM('',(#568),#14);
#14=MANIFOLD_SOLID_BREP('Solid2',#338);
#15=FACE_OUTER_BOUND('',#32,.T.);
#16=FACE_OUTER_BOUND('',#33,.T.);
#17=FACE_OUTER_BOUND('',#34,.T.);
#18=FACE_OUTER_BOUND('',#35,.T.);
#19=FACE_OUTER_BOUND('',#36,.T.);
#20=FACE_OUTER_BOUND('',#37,.T.);
#21=FACE_OUTER_BOUND('',#38,.T.);
#22=FACE_OUTER_BOUND('',#39,.T.);
#23=FACE_OUTER_BOUND('',#40,.T.);
#24=FACE_OUTER_BOUND('',#41,.T.);
#25=FACE_OUTER_BOUND('',#42,.T.);
#26=FACE_OUTER_BOUND('',#43,.T.);
#27=FACE_OUTER_BOUND('',#44,.T.);
#28=FACE_OUTER_BOUND('',#45,.T.);
#29=FACE_OUTER_BOUND('',#46,.T.);
#30=FACE_OUTER_BOUND('',#47,.T.);
#31=FACE_OUTER_BOUND('',#48,.T.);
#32=EDGE_LOOP('',(#214,#215,#216,#217));
#33=EDGE_LOOP('',(#218,#219,#220,#221));
#34=EDGE_LOOP('',(#222,#223,#224,#225));
#35=EDGE_LOOP('',(#226,#227,#228,#229));
#36=EDGE_LOOP('',(#230,#231,#232,#233));
#37=EDGE_LOOP('',(#234,#235,#236,#237));
#38=EDGE_LOOP('',(#238,#239,#240,#241));
#39=EDGE_LOOP('',(#242,#243,#244,#245));
#40=EDGE_LOOP('',(#246,#247,#248,#249));
#41=EDGE_LOOP('',(#250,#251,#252,#253));
#42=EDGE_LOOP('',(#254,#255,#256,#257));
#43=EDGE_LOOP('',(#258,#259,#260,#261));
#44=EDGE_LOOP('',(#262,#263,#264,#265));
#45=EDGE_LOOP('',(#266,#267,#268,#269));
#46=EDGE_LOOP('',(#270,#271,#272,#273));
#47=EDGE_LOOP('',(#274,#275,#276,#277,#278,#279,#280,#281,#282,#283,#284,
#285,#286,#287,#288));
#48=EDGE_LOOP('',(#289,#290,#291,#292,#293,#294,#295,#296,#297,#298,#299,
#300,#301,#302,#303));
#49=LINE('',#460,#94);
#50=LINE('',#462,#95);
#51=LINE('',#464,#96);
#52=LINE('',#465,#97);
#53=LINE('',#468,#98);
#54=LINE('',#470,#99);
#55=LINE('',#471,#100);
#56=LINE('',#474,#101);
#57=LINE('',#476,#102);
#58=LINE('',#477,#103);
#59=LINE('',#480,#104);
#60=LINE('',#482,#105);
#61=LINE('',#483,#106);
#62=LINE('',#486,#107);
#63=LINE('',#488,#108);
#64=LINE('',#489,#109);
#65=LINE('',#492,#110);
#66=LINE('',#494,#111);
#67=LINE('',#495,#112);
#68=LINE('',#498,#113);
#69=LINE('',#500,#114);
#70=LINE('',#501,#115);
#71=LINE('',#504,#116);
#72=LINE('',#506,#117);
#73=LINE('',#507,#118);
#74=LINE('',#510,#119);
#75=LINE('',#512,#120);
#76=LINE('',#513,#121);
#77=LINE('',#516,#122);
#78=LINE('',#518,#123);
#79=LINE('',#519,#124);
#80=LINE('',#522,#125);
#81=LINE('',#524,#126);
#82=LINE('',#525,#127);
#83=LINE('',#528,#128);
#84=LINE('',#530,#129);
#85=LINE('',#531,#130);
#86=LINE('',#534,#131);
#87=LINE('',#536,#132);
#88=LINE('',#537,#133);
#89=LINE('',#540,#134);
#90=LINE('',#542,#135);
#91=LINE('',#543,#136);
#92=LINE('',#545,#137);
#93=LINE('',#546,#138);
#94=VECTOR('',#379,10.);
#95=VECTOR('',#380,10.);
#96=VECTOR('',#381,10.);
#97=VECTOR('',#382,10.);
#98=VECTOR('',#385,10.);
#99=VECTOR('',#386,10.);
#100=VECTOR('',#387,10.);
#101=VECTOR('',#390,10.);
#102=VECTOR('',#391,10.);
#103=VECTOR('',#392,10.);
#104=VECTOR('',#395,10.);
#105=VECTOR('',#396,10.);
#106=VECTOR('',#397,10.);
#107=VECTOR('',#400,10.);
#108=VECTOR('',#401,10.);
#109=VECTOR('',#402,10.);
#110=VECTOR('',#405,10.);
#111=VECTOR('',#406,10.);
#112=VECTOR('',#407,10.);
#113=VECTOR('',#410,10.);
#114=VECTOR('',#411,10.);
#115=VECTOR('',#412,10.);
#116=VECTOR('',#415,10.);
#117=VECTOR('',#416,10.);
#118=VECTOR('',#417,10.);
#119=VECTOR('',#420,10.);
#120=VECTOR('',#421,10.);
#121=VECTOR('',#422,10.);
#122=VECTOR('',#425,10.);
#123=VECTOR('',#426,10.);
#124=VECTOR('',#427,10.);
#125=VECTOR('',#430,10.);
#126=VECTOR('',#431,10.);
#127=VECTOR('',#432,10.);
#128=VECTOR('',#435,10.);
#129=VECTOR('',#436,10.);
#130=VECTOR('',#437,10.);
#131=VECTOR('',#440,10.);
#132=VECTOR('',#441,10.);
#133=VECTOR('',#442,10.);
#134=VECTOR('',#445,10.);
#135=VECTOR('',#446,10.);
#136=VECTOR('',#447,10.);
#137=VECTOR('',#450,10.);
#138=VECTOR('',#451,10.);
#139=VERTEX_POINT('',#458);
#140=VERTEX_POINT('',#459);
#141=VERTEX_POINT('',#461);
#142=VERTEX_POINT('',#463);
#143=VERTEX_POINT('',#467);
#144=VERTEX_POINT('',#469);
#145=VERTEX_POINT('',#473);
#146=VERTEX_POINT('',#475);
#147=VERTEX_POINT('',#479);
#148=VERTEX_POINT('',#481);
#149=VERTEX_POINT('',#485);
#150=VERTEX_POINT('',#487);
#151=VERTEX_POINT('',#491);
#152=VERTEX_POINT('',#493);
#153=VERTEX_POINT('',#497);
#154=VERTEX_POINT('',#499);
#155=VERTEX_POINT('',#503);
#156=VERTEX_POINT('',#505);
#157=VERTEX_POINT('',#509);
#158=VERTEX_POINT('',#511);
#159=VERTEX_POINT('',#515);
#160=VERTEX_POINT('',#517);
#161=VERTEX_POINT('',#521);
#162=VERTEX_POINT('',#523);
#163=VERTEX_POINT('',#527);
#164=VERTEX_POINT('',#529);
#165=VERTEX_POINT('',#533);
#166=VERTEX_POINT('',#535);
#167=VERTEX_POINT('',#539);
#168=VERTEX_POINT('',#541);
#169=EDGE_CURVE('',#139,#140,#49,.T.);
#170=EDGE_CURVE('',#139,#141,#50,.T.);
#171=EDGE_CURVE('',#142,#141,#51,.T.);
#172=EDGE_CURVE('',#140,#142,#52,.T.);
#173=EDGE_CURVE('',#140,#143,#53,.T.);
#174=EDGE_CURVE('',#144,#142,#54,.T.);
#175=EDGE_CURVE('',#143,#144,#55,.T.);
#176=EDGE_CURVE('',#143,#145,#56,.T.);
#177=EDGE_CURVE('',#146,#144,#57,.T.);
#178=EDGE_CURVE('',#145,#146,#58,.T.);
#179=EDGE_CURVE('',#145,#147,#59,.T.);
#180=EDGE_CURVE('',#148,#146,#60,.T.);
#181=EDGE_CURVE('',#147,#148,#61,.T.);
#182=EDGE_CURVE('',#147,#149,#62,.T.);
#183=EDGE_CURVE('',#150,#148,#63,.T.);
#184=EDGE_CURVE('',#149,#150,#64,.T.);
#185=EDGE_CURVE('',#149,#151,#65,.T.);
#186=EDGE_CURVE('',#152,#150,#66,.T.);
#187=EDGE_CURVE('',#151,#152,#67,.T.);
#188=EDGE_CURVE('',#151,#153,#68,.T.);
#189=EDGE_CURVE('',#154,#152,#69,.T.);
#190=EDGE_CURVE('',#153,#154,#70,.T.);
#191=EDGE_CURVE('',#153,#155,#71,.T.);
#192=EDGE_CURVE('',#156,#154,#72,.T.);
#193=EDGE_CURVE('',#155,#156,#73,.T.);
#194=EDGE_CURVE('',#155,#157,#74,.T.);
#195=EDGE_CURVE('',#158,#156,#75,.T.);
#196=EDGE_CURVE('',#157,#158,#76,.T.);
#197=EDGE_CURVE('',#157,#159,#77,.T.);
#198=EDGE_CURVE('',#160,#158,#78,.T.);
#199=EDGE_CURVE('',#159,#160,#79,.T.);
#200=EDGE_CURVE('',#159,#161,#80,.T.);
#201=EDGE_CURVE('',#162,#160,#81,.T.);
#202=EDGE_CURVE('',#161,#162,#82,.T.);
#203=EDGE_CURVE('',#161,#163,#83,.T.);
#204=EDGE_CURVE('',#164,#162,#84,.T.);
#205=EDGE_CURVE('',#163,#164,#85,.T.);
#206=EDGE_CURVE('',#163,#165,#86,.T.);
#207=EDGE_CURVE('',#166,#164,#87,.T.);
#208=EDGE_CURVE('',#165,#166,#88,.T.);
#209=EDGE_CURVE('',#165,#167,#89,.T.);
#210=EDGE_CURVE('',#168,#166,#90,.T.);
#211=EDGE_CURVE('',#167,#168,#91,.T.);
#212=EDGE_CURVE('',#167,#139,#92,.T.);
#213=EDGE_CURVE('',#141,#168,#93,.T.);
#214=ORIENTED_EDGE('',*,*,#169,.F.);
#215=ORIENTED_EDGE('',*,*,#170,.T.);
#216=ORIENTED_EDGE('',*,*,#171,.F.);
#217=ORIENTED_EDGE('',*,*,#172,.F.);
#218=ORIENTED_EDGE('',*,*,#173,.F.);
#219=ORIENTED_EDGE('',*,*,#172,.T.);
#220=ORIENTED_EDGE('',*,*,#174,.F.);
#221=ORIENTED_EDGE('',*,*,#175,.F.);
#222=ORIENTED_EDGE('',*,*,#176,.F.);
#223=ORIENTED_EDGE('',*,*,#175,.T.);
#224=ORIENTED_EDGE('',*,*,#177,.F.);
#225=ORIENTED_EDGE('',*,*,#178,.F.);
#226=ORIENTED_EDGE('',*,*,#179,.F.);
#227=ORIENTED_EDGE('',*,*,#178,.T.);
#228=ORIENTED_EDGE('',*,*,#180,.F.);
#229=ORIENTED_EDGE('',*,*,#181,.F.);
#230=ORIENTED_EDGE('',*,*,#182,.F.);
#231=ORIENTED_EDGE('',*,*,#181,.T.);
#232=ORIENTED_EDGE('',*,*,#183,.F.);
#233=ORIENTED_EDGE('',*,*,#184,.F.);
#234=ORIENTED_EDGE('',*,*,#185,.F.);
#235=ORIENTED_EDGE('',*,*,#184,.T.);
#236=ORIENTED_EDGE('',*,*,#186,.F.);
#237=ORIENTED_EDGE('',*,*,#187,.F.);
#238=ORIENTED_EDGE('',*,*,#188,.F.);
#239=ORIENTED_EDGE('',*,*,#187,.T.);
#240=ORIENTED_EDGE('',*,*,#189,.F.);
#241=ORIENTED_EDGE('',*,*,#190,.F.);
#242=ORIENTED_EDGE('',*,*,#191,.F.);
#243=ORIENTED_EDGE('',*,*,#190,.T.);
#244=ORIENTED_EDGE('',*,*,#192,.F.);
#245=ORIENTED_EDGE('',*,*,#193,.F.);
#246=ORIENTED_EDGE('',*,*,#194,.F.);
#247=ORIENTED_EDGE('',*,*,#193,.T.);
#248=ORIENTED_EDGE('',*,*,#195,.F.);
#249=ORIENTED_EDGE('',*,*,#196,.F.);
#250=ORIENTED_EDGE('',*,*,#197,.F.);
#251=ORIENTED_EDGE('',*,*,#196,.T.);
#252=ORIENTED_EDGE('',*,*,#198,.F.);
#253=ORIENTED_EDGE('',*,*,#199,.F.);
#254=ORIENTED_EDGE('',*,*,#200,.F.);
#255=ORIENTED_EDGE('',*,*,#199,.T.);
#256=ORIENTED_EDGE('',*,*,#201,.F.);
#257=ORIENTED_EDGE('',*,*,#202,.F.);
#258=ORIENTED_EDGE('',*,*,#203,.F.);
#259=ORIENTED_EDGE('',*,*,#202,.T.);
#260=ORIENTED_EDGE('',*,*,#204,.F.);
#261=ORIENTED_EDGE('',*,*,#205,.F.);
#262=ORIENTED_EDGE('',*,*,#206,.F.);
#263=ORIENTED_EDGE('',*,*,#205,.T.);
#264=ORIENTED_EDGE('',*,*,#207,.F.);
#265=ORIENTED_EDGE('',*,*,#208,.F.);
#266=ORIENTED_EDGE('',*,*,#209,.F.);
#267=ORIENTED_EDGE('',*,*,#208,.T.);
#268=ORIENTED_EDGE('',*,*,#210,.F.);
#269=ORIENTED_EDGE('',*,*,#211,.F.);
#270=ORIENTED_EDGE('',*,*,#212,.F.);
#271=ORIENTED_EDGE('',*,*,#211,.T.);
#272=ORIENTED_EDGE('',*,*,#213,.F.);
#273=ORIENTED_EDGE('',*,*,#170,.F.);
#274=ORIENTED_EDGE('',*,*,#212,.T.);
#275=ORIENTED_EDGE('',*,*,#169,.T.);
#276=ORIENTED_EDGE('',*,*,#173,.T.);
#277=ORIENTED_EDGE('',*,*,#176,.T.);
#278=ORIENTED_EDGE('',*,*,#179,.T.);
#279=ORIENTED_EDGE('',*,*,#182,.T.);
#280=ORIENTED_EDGE('',*,*,#185,.T.);
#281=ORIENTED_EDGE('',*,*,#188,.T.);
#282=ORIENTED_EDGE('',*,*,#191,.T.);
#283=ORIENTED_EDGE('',*,*,#194,.T.);
#284=ORIENTED_EDGE('',*,*,#197,.T.);
#285=ORIENTED_EDGE('',*,*,#200,.T.);
#286=ORIENTED_EDGE('',*,*,#203,.T.);
#287=ORIENTED_EDGE('',*,*,#206,.T.);
#288=ORIENTED_EDGE('',*,*,#209,.T.);
#289=ORIENTED_EDGE('',*,*,#213,.T.);
#290=ORIENTED_EDGE('',*,*,#210,.T.);
#291=ORIENTED_EDGE('',*,*,#207,.T.);
#292=ORIENTED_EDGE('',*,*,#204,.T.);
#293=ORIENTED_EDGE('',*,*,#201,.T.);
#294=ORIENTED_EDGE('',*,*,#198,.T.);
#295=ORIENTED_EDGE('',*,*,#195,.T.);
#296=ORIENTED_EDGE('',*,*,#192,.T.);
#297=ORIENTED_EDGE('',*,*,#189,.T.);
#298=ORIENTED_EDGE('',*,*,#186,.T.);
#299=ORIENTED_EDGE('',*,*,#183,.T.);
#300=ORIENTED_EDGE('',*,*,#180,.T.);
#301=ORIENTED_EDGE('',*,*,#177,.T.);
#302=ORIENTED_EDGE('',*,*,#174,.T.);
#303=ORIENTED_EDGE('',*,*,#171,.T.);
#304=PLANE('',#358);
#305=PLANE('',#359);
#306=PLANE('',#360);
#307=PLANE('',#361);
#308=PLANE('',#362);
#309=PLANE('',#363);
#310=PLANE('',#364);
#311=PLANE('',#365);
#312=PLANE('',#366);
#313=PLANE('',#367);
#314=PLANE('',#368);
#315=PLANE('',#369);
#316=PLANE('',#370);
#317=PLANE('',#371);
#318=PLANE('',#372);
#319=PLANE('',#373);
#320=PLANE('',#374);
#321=ADVANCED_FACE('',(#15),#304,.T.);
#322=ADVANCED_FACE('',(#16),#305,.T.);
#323=ADVANCED_FACE('',(#17),#306,.T.);
#324=ADVANCED_FACE('',(#18),#307,.T.);
#325=ADVANCED_FACE('',(#19),#308,.T.);
#326=ADVANCED_FACE('',(#20),#309,.T.);
#327=ADVANCED_FACE('',(#21),#310,.T.);
#328=ADVANCED_FACE('',(#22),#311,.T.);
#329=ADVANCED_FACE('',(#23),#312,.T.);
#330=ADVANCED_FACE('',(#24),#313,.T.);
#331=ADVANCED_FACE('',(#25),#314,.T.);
#332=ADVANCED_FACE('',(#26),#315,.T.);
#333=ADVANCED_FACE('',(#27),#316,.T.);
#334=ADVANCED_FACE('',(#28),#317,.T.);
#335=ADVANCED_FACE('',(#29),#318,.T.);
#336=ADVANCED_FACE('',(#30),#319,.F.);
#337=ADVANCED_FACE('',(#31),#320,.T.);
#338=CLOSED_SHELL('',(#321,#322,#323,#324,#325,#326,#327,#328,#329,#330,
#331,#332,#333,#334,#335,#336,#337));
#339=DERIVED_UNIT_ELEMENT(#341,1.);
#340=DERIVED_UNIT_ELEMENT(#554,3.);
#341=(
MASS_UNIT()
NAMED_UNIT(*)
SI_UNIT($,.GRAM.)
);
#342=DERIVED_UNIT((#339,#340));
#343=MEASURE_REPRESENTATION_ITEM('density measure',
POSITIVE_RATIO_MEASURE(7.87),#342);
#344=PROPERTY_DEFINITION_REPRESENTATION(#349,#346);
#345=PROPERTY_DEFINITION_REPRESENTATION(#350,#347);
#346=REPRESENTATION('material name',(#348),#551);
#347=REPRESENTATION('density',(#343),#551);
#348=DESCRIPTIVE_REPRESENTATION_ITEM('Steel, Carbon','Steel, Carbon');
#349=PROPERTY_DEFINITION('material property','material name',#561);
#350=PROPERTY_DEFINITION('material property','density of part',#561);
#351=DATE_TIME_ROLE('creation_date');
#352=APPLIED_DATE_AND_TIME_ASSIGNMENT(#353,#351,(#561));
#353=DATE_AND_TIME(#354,#355);
#354=CALENDAR_DATE(2018,21,3);
#355=LOCAL_TIME(11,56,54.,#356);
#356=COORDINATED_UNIVERSAL_TIME_OFFSET(0,0,.BEHIND.);
#357=AXIS2_PLACEMENT_3D('placement',#456,#375,#376);
#358=AXIS2_PLACEMENT_3D('',#457,#377,#378);
#359=AXIS2_PLACEMENT_3D('',#466,#383,#384);
#360=AXIS2_PLACEMENT_3D('',#472,#388,#389);
#361=AXIS2_PLACEMENT_3D('',#478,#393,#394);
#362=AXIS2_PLACEMENT_3D('',#484,#398,#399);
#363=AXIS2_PLACEMENT_3D('',#490,#403,#404);
#364=AXIS2_PLACEMENT_3D('',#496,#408,#409);
#365=AXIS2_PLACEMENT_3D('',#502,#413,#414);
#366=AXIS2_PLACEMENT_3D('',#508,#418,#419);
#367=AXIS2_PLACEMENT_3D('',#514,#423,#424);
#368=AXIS2_PLACEMENT_3D('',#520,#428,#429);
#369=AXIS2_PLACEMENT_3D('',#526,#433,#434);
#370=AXIS2_PLACEMENT_3D('',#532,#438,#439);
#371=AXIS2_PLACEMENT_3D('',#538,#443,#444);
#372=AXIS2_PLACEMENT_3D('',#544,#448,#449);
#373=AXIS2_PLACEMENT_3D('',#547,#452,#453);
#374=AXIS2_PLACEMENT_3D('',#548,#454,#455);
#375=DIRECTION('axis',(0.,0.,1.));
#376=DIRECTION('refdir',(1.,0.,0.));
#377=DIRECTION('center_axis',(-0.866906303057539,-0.498471124258076,0.));
#378=DIRECTION('ref_axis',(0.498471124258076,-0.866906303057539,0.));
#379=DIRECTION('',(-0.498471124258076,0.866906303057539,0.));
#380=DIRECTION('',(0.,0.,1.));
#381=DIRECTION('',(0.498471124258076,-0.866906303057539,0.));
#382=DIRECTION('',(0.,0.,1.));
#383=DIRECTION('center_axis',(-6.64058631551496E-16,-1.,0.));
#384=DIRECTION('ref_axis',(1.,-6.64058631551496E-16,0.));
#385=DIRECTION('',(-1.,6.64058631551496E-16,0.));
#386=DIRECTION('',(1.,-6.64058631551496E-16,0.));
#387=DIRECTION('',(0.,0.,1.));
#388=DIRECTION('center_axis',(0.866906303057535,-0.498471124258084,0.));
#389=DIRECTION('ref_axis',(0.498471124258084,0.866906303057534,0.));
#390=DIRECTION('',(-0.498471124258084,-0.866906303057534,0.));
#391=DIRECTION('',(0.498471124258084,0.866906303057534,0.));
#392=DIRECTION('',(0.,0.,1.));
#393=DIRECTION('center_axis',(-3.10862446895043E-15,-1.,0.));
#394=DIRECTION('ref_axis',(1.,-3.10862446895043E-15,0.));
#395=DIRECTION('',(-1.,3.10862446895043E-15,0.));
#396=DIRECTION('',(1.,-3.10862446895043E-15,0.));
#397=DIRECTION('',(0.,0.,1.));
#398=DIRECTION('center_axis',(-1.,0.,0.));
#399=DIRECTION('ref_axis',(0.,-1.,0.));
#400=DIRECTION('',(0.,1.,0.));
#401=DIRECTION('',(0.,-1.,0.));
#402=DIRECTION('',(0.,0.,1.));
#403=DIRECTION('center_axis',(-0.982872186934322,0.184288535050185,0.));
#404=DIRECTION('ref_axis',(-0.184288535050185,-0.982872186934322,0.));
#405=DIRECTION('',(0.184288535050185,0.982872186934322,0.));
#406=DIRECTION('',(-0.184288535050185,-0.982872186934322,0.));
#407=DIRECTION('',(0.,0.,1.));
#408=DIRECTION('center_axis',(4.33257765707378E-17,1.,0.));
#409=DIRECTION('ref_axis',(-1.,4.33257765707378E-17,0.));
#410=DIRECTION('',(1.,-4.33257765707378E-17,0.));
#411=DIRECTION('',(-1.,4.33257765707378E-17,0.));
#412=DIRECTION('',(0.,0.,1.));
#413=DIRECTION('center_axis',(1.,0.,0.));
#414=DIRECTION('ref_axis',(0.,1.,0.));
#415=DIRECTION('',(0.,-1.,0.));
#416=DIRECTION('',(0.,1.,0.));
#417=DIRECTION('',(0.,0.,1.));
#418=DIRECTION('center_axis',(-1.1842378929335E-15,1.,0.));
#419=DIRECTION('ref_axis',(-1.,-1.1842378929335E-15,0.));
#420=DIRECTION('',(1.,1.1842378929335E-15,0.));
#421=DIRECTION('',(-1.,-1.1842378929335E-15,0.));
#422=DIRECTION('',(0.,0.,1.));
#423=DIRECTION('center_axis',(-1.,0.,0.));
#424=DIRECTION('ref_axis',(0.,-1.,0.));
#425=DIRECTION('',(0.,1.,0.));
#426=DIRECTION('',(0.,-1.,0.));
#427=DIRECTION('',(0.,0.,1.));
#428=DIRECTION('center_axis',(0.,1.,0.));
#429=DIRECTION('ref_axis',(-1.,0.,0.));
#430=DIRECTION('',(1.,0.,0.));
#431=DIRECTION('',(-1.,0.,0.));
#432=DIRECTION('',(0.,0.,1.));
#433=DIRECTION('center_axis',(1.,-4.73695157173406E-15,0.));
#434=DIRECTION('ref_axis',(4.73695157173406E-15,1.,0.));
#435=DIRECTION('',(-4.73695157173406E-15,-1.,0.));
#436=DIRECTION('',(4.73695157173406E-15,1.,0.));
#437=DIRECTION('',(0.,0.,1.));
#438=DIRECTION('center_axis',(0.971014878934766,0.239019047122404,0.));
#439=DIRECTION('ref_axis',(-0.239019047122404,0.971014878934766,0.));
#440=DIRECTION('',(0.239019047122404,-0.971014878934766,0.));
#441=DIRECTION('',(-0.239019047122404,0.971014878934766,0.));
#442=DIRECTION('',(0.,0.,1.));
#443=DIRECTION('center_axis',(1.,0.,0.));
#444=DIRECTION('ref_axis',(0.,1.,0.));
#445=DIRECTION('',(0.,-1.,0.));
#446=DIRECTION('',(0.,1.,0.));
#447=DIRECTION('',(0.,0.,1.));
#448=DIRECTION('center_axis',(4.68022161279108E-16,-1.,0.));
#449=DIRECTION('ref_axis',(1.,4.68022161279108E-16,0.));
#450=DIRECTION('',(-1.,-4.68022161279108E-16,0.));
#451=DIRECTION('',(1.,4.68022161279108E-16,0.));
#452=DIRECTION('center_axis',(0.,0.,1.));
#453=DIRECTION('ref_axis',(1.,0.,0.));
#454=DIRECTION('center_axis',(0.,0.,1.));
#455=DIRECTION('ref_axis',(1.,0.,0.));
#456=CARTESIAN_POINT('',(0.,0.,0.));
#457=CARTESIAN_POINT('Origin',(-346.638087774295,-148.484849384332,0.));
#458=CARTESIAN_POINT('',(-340.888087774295,-158.484849384332,0.));
#459=CARTESIAN_POINT('',(-346.638087774295,-148.484849384332,0.));
#460=CARTESIAN_POINT('',(-340.888087774295,-158.484849384332,0.));
#461=CARTESIAN_POINT('',(-340.888087774295,-158.484849384332,50.));
#462=CARTESIAN_POINT('',(-340.888087774295,-158.484849384332,0.));
#463=CARTESIAN_POINT('',(-346.638087774295,-148.484849384332,50.));
#464=CARTESIAN_POINT('',(-340.888087774295,-158.484849384332,50.));
#465=CARTESIAN_POINT('',(-346.638087774295,-148.484849384332,0.));
#466=CARTESIAN_POINT('Origin',(-400.138087774295,-148.484849384332,0.));
#467=CARTESIAN_POINT('',(-400.138087774295,-148.484849384332,0.));
#468=CARTESIAN_POINT('',(-346.638087774295,-148.484849384332,0.));
#469=CARTESIAN_POINT('',(-400.138087774295,-148.484849384332,50.));
#470=CARTESIAN_POINT('',(-346.638087774295,-148.484849384332,50.));
#471=CARTESIAN_POINT('',(-400.138087774295,-148.484849384332,0.));
#472=CARTESIAN_POINT('Origin',(-405.888087774295,-158.484849384332,0.));
#473=CARTESIAN_POINT('',(-405.888087774295,-158.484849384332,0.));
#474=CARTESIAN_POINT('',(-400.138087774295,-148.484849384332,0.));
#475=CARTESIAN_POINT('',(-405.888087774295,-158.484849384332,50.));
#476=CARTESIAN_POINT('',(-400.138087774295,-148.484849384332,50.));
#477=CARTESIAN_POINT('',(-405.888087774295,-158.484849384332,0.));
#478=CARTESIAN_POINT('Origin',(-485.888087774295,-158.484849384331,0.));
#479=CARTESIAN_POINT('',(-485.888087774295,-158.484849384331,0.));
#480=CARTESIAN_POINT('',(-405.888087774295,-158.484849384332,0.));
#481=CARTESIAN_POINT('',(-485.888087774295,-158.484849384331,50.));
#482=CARTESIAN_POINT('',(-405.888087774295,-158.484849384332,50.));
#483=CARTESIAN_POINT('',(-485.888087774295,-158.484849384331,0.));
#484=CARTESIAN_POINT('Origin',(-485.888087774295,41.5151506156682,0.));
#485=CARTESIAN_POINT('',(-485.888087774295,41.5151506156682,0.));
#486=CARTESIAN_POINT('',(-485.888087774295,-158.484849384331,0.));
#487=CARTESIAN_POINT('',(-485.888087774295,41.5151506156682,50.));
#488=CARTESIAN_POINT('',(-485.888087774295,-158.484849384331,50.));
#489=CARTESIAN_POINT('',(-485.888087774295,41.5151506156682,0.));
#490=CARTESIAN_POINT('Origin',(-455.888087774295,201.515150615668,0.));
#491=CARTESIAN_POINT('',(-455.888087774295,201.515150615668,0.));
#492=CARTESIAN_POINT('',(-485.888087774295,41.5151506156682,0.));
#493=CARTESIAN_POINT('',(-455.888087774295,201.515150615668,50.));
#494=CARTESIAN_POINT('',(-485.888087774295,41.5151506156682,50.));
#495=CARTESIAN_POINT('',(-455.888087774295,201.515150615668,0.));
#496=CARTESIAN_POINT('Origin',(364.111912225705,201.515150615668,0.));
#497=CARTESIAN_POINT('',(364.111912225705,201.515150615668,0.));
#498=CARTESIAN_POINT('',(-455.888087774295,201.515150615668,0.));
#499=CARTESIAN_POINT('',(364.111912225705,201.515150615668,50.));
#500=CARTESIAN_POINT('',(-455.888087774295,201.515150615668,50.));
#501=CARTESIAN_POINT('',(364.111912225705,201.515150615668,0.));
#502=CARTESIAN_POINT('Origin',(364.111912225705,186.515150615668,0.));
#503=CARTESIAN_POINT('',(364.111912225705,186.515150615668,0.));
#504=CARTESIAN_POINT('',(364.111912225705,201.515150615668,0.));
#505=CARTESIAN_POINT('',(364.111912225705,186.515150615668,50.));
#506=CARTESIAN_POINT('',(364.111912225705,201.515150615668,50.));
#507=CARTESIAN_POINT('',(364.111912225705,186.515150615668,0.));
#508=CARTESIAN_POINT('Origin',(394.111912225705,186.515150615668,0.));
#509=CARTESIAN_POINT('',(394.111912225705,186.515150615668,0.));
#510=CARTESIAN_POINT('',(364.111912225705,186.515150615668,0.));
#511=CARTESIAN_POINT('',(394.111912225705,186.515150615668,50.));
#512=CARTESIAN_POINT('',(364.111912225705,186.515150615668,50.));
#513=CARTESIAN_POINT('',(394.111912225705,186.515150615668,0.));
#514=CARTESIAN_POINT('Origin',(394.111912225705,201.515150615669,0.));
#515=CARTESIAN_POINT('',(394.111912225705,201.515150615669,0.));
#516=CARTESIAN_POINT('',(394.111912225705,186.515150615668,0.));
#517=CARTESIAN_POINT('',(394.111912225705,201.515150615669,50.));
#518=CARTESIAN_POINT('',(394.111912225705,186.515150615668,50.));
#519=CARTESIAN_POINT('',(394.111912225705,201.515150615669,0.));
#520=CARTESIAN_POINT('Origin',(414.111912225705,201.515150615669,0.));
#521=CARTESIAN_POINT('',(414.111912225705,201.515150615669,0.));
#522=CARTESIAN_POINT('',(394.111912225705,201.515150615669,0.));
#523=CARTESIAN_POINT('',(414.111912225705,201.515150615669,50.));
#524=CARTESIAN_POINT('',(394.111912225705,201.515150615669,50.));
#525=CARTESIAN_POINT('',(414.111912225705,201.515150615669,0.));
#526=CARTESIAN_POINT('Origin',(414.111912225705,186.515150615669,0.));
#527=CARTESIAN_POINT('',(414.111912225705,186.515150615669,0.));
#528=CARTESIAN_POINT('',(414.111912225705,201.515150615669,0.));
#529=CARTESIAN_POINT('',(414.111912225705,186.515150615669,50.));
#530=CARTESIAN_POINT('',(414.111912225705,201.515150615669,50.));
#531=CARTESIAN_POINT('',(414.111912225705,186.515150615669,0.));
#532=CARTESIAN_POINT('Origin',(494.111912225705,-138.484849384331,0.));
#533=CARTESIAN_POINT('',(494.111912225705,-138.484849384331,0.));
#534=CARTESIAN_POINT('',(414.111912225705,186.515150615669,0.));
#535=CARTESIAN_POINT('',(494.111912225705,-138.484849384331,50.));
#536=CARTESIAN_POINT('',(414.111912225705,186.515150615669,50.));
#537=CARTESIAN_POINT('',(494.111912225705,-138.484849384331,0.));
#538=CARTESIAN_POINT('Origin',(494.111912225705,-158.484849384331,0.));
#539=CARTESIAN_POINT('',(494.111912225705,-158.484849384331,0.));
#540=CARTESIAN_POINT('',(494.111912225705,-138.484849384331,0.));
#541=CARTESIAN_POINT('',(494.111912225705,-158.484849384331,50.));
#542=CARTESIAN_POINT('',(494.111912225705,-138.484849384331,50.));
#543=CARTESIAN_POINT('',(494.111912225705,-158.484849384331,0.));
#544=CARTESIAN_POINT('Origin',(-340.888087774295,-158.484849384332,0.));
#545=CARTESIAN_POINT('',(494.111912225705,-158.484849384331,0.));
#546=CARTESIAN_POINT('',(494.111912225705,-158.484849384331,50.));
#547=CARTESIAN_POINT('Origin',(-4.89194647506111,15.3398838427311,0.));
#548=CARTESIAN_POINT('Origin',(-4.8919464750611,15.3398838427311,50.));
#549=UNCERTAINTY_MEASURE_WITH_UNIT(LENGTH_MEASURE(0.01),#553,
'DISTANCE_ACCURACY_VALUE',
'Maximum model space distance between geometric entities at asserted c
onnectivities');
#550=UNCERTAINTY_MEASURE_WITH_UNIT(LENGTH_MEASURE(0.01),#553,
'DISTANCE_ACCURACY_VALUE',
'Maximum model space distance between geometric entities at asserted c
onnectivities');
#551=(
GEOMETRIC_REPRESENTATION_CONTEXT(3)
GLOBAL_UNCERTAINTY_ASSIGNED_CONTEXT((#549))
GLOBAL_UNIT_ASSIGNED_CONTEXT((#553,#556,#555))
REPRESENTATION_CONTEXT('','3D')
);
#552=(
GEOMETRIC_REPRESENTATION_CONTEXT(3)
GLOBAL_UNCERTAINTY_ASSIGNED_CONTEXT((#550))
GLOBAL_UNIT_ASSIGNED_CONTEXT((#553,#556,#555))
REPRESENTATION_CONTEXT('','3D')
);
#553=(
LENGTH_UNIT()
NAMED_UNIT(*)
SI_UNIT(.MILLI.,.METRE.)
);
#554=(
LENGTH_UNIT()
NAMED_UNIT(*)
SI_UNIT(.CENTI.,.METRE.)
);
#555=(
NAMED_UNIT(*)
SI_UNIT($,.STERADIAN.)
SOLID_ANGLE_UNIT()
);
#556=(
NAMED_UNIT(*)
PLANE_ANGLE_UNIT()
SI_UNIT($,.RADIAN.)
);
#557=SHAPE_DEFINITION_REPRESENTATION(#558,#559);
#558=PRODUCT_DEFINITION_SHAPE('',$,#561);
#559=SHAPE_REPRESENTATION('',(#357),#551);
#560=PRODUCT_DEFINITION_CONTEXT('part definition',#565,'design');
#561=PRODUCT_DEFINITION('S 1100','S 1100',#562,#560);
#562=PRODUCT_DEFINITION_FORMATION('',$,#567);
#563=PRODUCT_RELATED_PRODUCT_CATEGORY('S 1100','S 1100',(#567));
#564=APPLICATION_PROTOCOL_DEFINITION('international standard',
'automotive_design',2009,#565);
#565=APPLICATION_CONTEXT(
'Core Data for Automotive Mechanical Design Process');
#566=PRODUCT_CONTEXT('part definition',#565,'mechanical');
#567=PRODUCT('S 1100','S 1100',$,(#566));
#568=PRESENTATION_STYLE_ASSIGNMENT((#569));
#569=SURFACE_STYLE_USAGE(.BOTH.,#570);
#570=SURFACE_SIDE_STYLE('',(#571));
#571=SURFACE_STYLE_FILL_AREA(#572);
#572=FILL_AREA_STYLE('',(#573));
#573=FILL_AREA_STYLE_COLOUR('',#574);
#574=COLOUR_RGB('',0.87843137254902,0.874509803921569,0.858823529411765);
ENDSEC;
END-ISO-10303-21;
